  0
SECTION
  2
HEADER
  9
$ACADVER
  1
AC1018
  9
$HANDSEED
  5
FFFFFF
  9
$EXTMAX
 10
7567110.97800000012
 20
5717151.28899999987
 30
1000000.00
  9
$EXTMIN
 10
7567094.30800000019
 20
5717134.88499999978
 30
0.00
  9
$LIMMIN
 10
7567094.30800000019
 20
5717134.88499999978
  9
$LIMMAX
 10
7567110.97800000012
 20
5717151.28899999987
  9
$DIMASZ
 40
2.5
  9
$DIMGAP
 40
0.625
  9
$INSUNITS
 70
6
  9
$DIMEXO
 40
0.625
  9
$DIMTXT
 40
2.5
  9
$DIMSTYLE
  2
Standard
  9
$PLIMMIN
 10
0.0
 20
0.0
  9
$PLIMMAX
 10
210.0
 20
297.0
  9
$DIMEXE
 40
1.25
  9
$TEXTSIZE
 40
2.5
  9
$TEXTSTYLE
  7
Standard
  9
$LWDISPLAY
290
1
  9
$TDCREATE
 40
43659.399767477
  9
$TDUCREATE
 40
43659.316434144
  9
$TDUPDATE
 40
43659.399767477
  9
$TDUUPDATE
 40
43659.316434144
  9
$TDINDWG
 40
0.0
  9
$TDUSRTIMER
 40
0.0
  9
$USRTIMER
 70
1
  0
ENDSEC
  0
SECTION
  2
TABLES
  0
TABLE
  2
VPORT
  5
1
100
AcDbSymbolTable
 70
1
  0
VPORT
  5
2
100
AcDbSymbolTableRecord
100
AcDbViewportTableRecord
  2
*ACTIVE
 70
0
 10
0.0
 20
0.0
 11
1.0
 21
1.0
 12
7567102.643
 22
5717143.087
 13
0.0
 23
0.0
 14
1.0
 24
1.0
 15
0.0
 25
0.0
 16
0.0
 26
0.0
 36
1.0
 17
0.0
 27
0.0
 37
0.0
 40
16.404
 41
1.016
 42
50.0
 43
0.0
 44
0.0
 50
0.0
 51
0.0
 71
0
 72
100
 73
1
 74
1
 75
0
 76
0
 77
0
 78
0
  0
ENDTAB
  0
TABLE
  2
LTYPE
  5
3
100
AcDbSymbolTable
 70
385
  0
LTYPE
  5
4
100
AcDbSymbolTableRecord
100
AcDbLinetypeTableRecord
  2
ByBlock
 70
0
  3

 72
65
 73
0
 40
0.0
  0
LTYPE
  5
5
100
AcDbSymbolTableRecord
100
AcDbLinetypeTableRecord
  2
ByLayer
 70
0
  3

 72
65
 73
0
 40
0.0
  0
LTYPE
  5
6
100
AcDbSymbolTableRecord
100
AcDbLinetypeTableRecord
  2
CONTINUOUS
 70
0
  3
Solid line
 72
65
 73
0
 40
0.0
  0
ENDTAB
  0
TABLE
  2
LAYER
  5
7
100
AcDbSymbolTable
 70
5
  0
LAYER
  5
8
100
AcDbSymbolTableRecord
100
AcDbLayerTableRecord
  2
0
 70
0
420
0
  6
CONTINUOUS
370
18
390
9
  0
LAYER
  5
A
100
AcDbSymbolTableRecord
100
AcDbLayerTableRecord
  2
fundament=sciana
 70
0
420
13762770
  6
CONTINUOUS
370
18
390
9
  0
LAYER
  5
B
100
AcDbSymbolTableRecord
100
AcDbLayerTableRecord
  2
osie
 70
0
420
16711680
  6
CONTINUOUS
370
18
390
9
  0
LAYER
  5
C
100
AcDbSymbolTableRecord
100
AcDbLayerTableRecord
  2
otwory
 70
0
420
8421376
  6
CONTINUOUS
370
18
390
9
  0
LAYER
  5
D
100
AcDbSymbolTableRecord
100
AcDbLayerTableRecord
  2
lawa_fundamentowa
 70
0
420
255
  6
CONTINUOUS
370
18
390
9
  0
ENDTAB
  0
TABLE
  2
STYLE
  5
E
100
AcDbSymbolTable
 70
1
  0
STYLE
  5
F
100
AcDbSymbolTableRecord
100
AcDbTextStyleTableRecord
  2
STANDARD
 70
0
 40
0.0
 41
1.0
 50
0.0
 71
0
  3
simplex.shx
  4

  0
ENDTAB
  0
TABLE
  2
VIEW
  5
10
100
AcDbSymbolTable
 70
0
  0
ENDTAB
  0
TABLE
  2
UCS
  5
11
100
AcDbSymbolTable
 70
0
  0
ENDTAB
  0
TABLE
  2
APPID
  5
12
100
AcDbSymbolTable
 70
1
  0
APPID
  5
13
100
AcDbSymbolTableRecord
100
AcDbRegAppTableRecord
  2
ACAD
 70
0
  0
ENDTAB
  0
TABLE
  2
DIMSTYLE
  5
14
100
AcDbSymbolTable
 70
1
100
AcDbDimStyleTable
  0
DIMSTYLE
105
15
100
AcDbSymbolTableRecord
100
AcDbDimStyleTableRecord
  2
Standard
 70
0
340
F
  0
ENDTAB
  0
TABLE
  2
BLOCK_RECORD
  5
16
100
AcDbSymbolTable
 70
2
  0
BLOCK_RECORD
  5
17
100
AcDbSymbolTableRecord
100
AcDbBlockTableRecord
  2
*Model_Space
340
18
  0
BLOCK_RECORD
  5
19
100
AcDbSymbolTableRecord
100
AcDbBlockTableRecord
  2
*Paper_Space
340
1A
  0
ENDTAB
  0
ENDSEC
  0
SECTION
  2
BLOCKS
  0
BLOCK
  5
1B
100
AcDbEntity
  8
0
100
AcDbBlockBegin
  2
*Model_Space
 70
0
 10
0.0
 20
0.0
 30
0.0
  3
*Model_Space
  1

  0
ENDBLK
  5
1C
100
AcDbEntity
  8
0
100
AcDbBlockEnd
  0
BLOCK
  5
1D
100
AcDbEntity
 67
1
  8
0
100
AcDbBlockBegin
  2
*Paper_Space
 70
0
 10
0.0
 20
0.0
 30
0.0
  3
*Paper_Space
  1

  0
ENDBLK
  5
1E
100
AcDbEntity
 67
1
  8
0
100
AcDbBlockEnd
  0
ENDSEC
  0
SECTION
  2
ENTITIES
  0
POLYLINE
  5
1F
100
AcDbEntity
  8
fundament=sciana
  6
CONTINUOUS
370
18
100
AcDb3dPolyline
 66
1
 70
136
  0
VERTEX
  5
20
100
AcDbEntity
  8
fundament=sciana
100
AcDbVertex
100
AcDb3dPolylineVertex
 10
7567108.78732188232
 20
5717143.54335161392
 70
32
  0
VERTEX
  5
21
100
AcDbEntity
  8
fundament=sciana
100
AcDbVertex
100
AcDb3dPolylineVertex
 10
7567107.98900000006
 20
5717144.29200000037
 70
32
  0
SEQEND
  5
22
100
AcDbEntity
  8
fundament=sciana
  0
POLYLINE
  5
23
100
AcDbEntity
  8
fundament=sciana
  6
CONTINUOUS
370
18
100
AcDb3dPolyline
 66
1
 70
136
  0
VERTEX
  5
24
100
AcDbEntity
  8
fundament=sciana
100
AcDbVertex
100
AcDb3dPolylineVertex
 10
7567107.98927506618
 20
5717144.29214905575
 70
32
  0
VERTEX
  5
25
100
AcDbEntity
  8
fundament=sciana
100
AcDbVertex
100
AcDb3dPolylineVertex
 10
7567108.30070134997
 20
5717144.62385628745
 70
32
  0
SEQEND
  5
26
100
AcDbEntity
  8
fundament=sciana
  0
POLYLINE
  5
27
100
AcDbEntity
  8
fundament=sciana
  6
CONTINUOUS
370
18
100
AcDb3dPolyline
 66
1
 70
136
  0
VERTEX
  5
28
100
AcDbEntity
  8
fundament=sciana
100
AcDbVertex
100
AcDb3dPolylineVertex
 10
7567105.93457087316
 20
5717144.71230304427
 70
32
  0
VERTEX
  5
29
100
AcDbEntity
  8
fundament=sciana
100
AcDbVertex
100
AcDb3dPolylineVertex
 10
7567105.78876133263
 20
5717144.84918928333
 70
32
  0
SEQEND
  5
2A
100
AcDbEntity
  8
fundament=sciana
  0
POLYLINE
  5
2B
100
AcDbEntity
  8
fundament=sciana
  6
CONTINUOUS
370
18
100
AcDb3dPolyline
 66
1
 70
136
  0
VERTEX
  5
2C
100
AcDbEntity
  8
fundament=sciana
100
AcDbVertex
100
AcDb3dPolylineVertex
 10
7567107.40606632456
 20
5717144.83972534537
 70
32
  0
VERTEX
  5
2D
100
AcDbEntity
  8
fundament=sciana
100
AcDbVertex
100
AcDb3dPolylineVertex
 10
7567107.71749260835
 20
5717145.17143257707
 70
32
  0
SEQEND
  5
2E
100
AcDbEntity
  8
fundament=sciana
  0
POLYLINE
  5
2F
100
AcDbEntity
  8
fundament=sciana
  6
CONTINUOUS
370
18
100
AcDb3dPolyline
 66
1
 70
136
  0
VERTEX
  5
30
100
AcDbEntity
  8
fundament=sciana
100
AcDbVertex
100
AcDb3dPolylineVertex
 10
7567108.30070134997
 20
5717144.62385628745
 70
32
  0
VERTEX
  5
31
100
AcDbEntity
  8
fundament=sciana
100
AcDbVertex
100
AcDb3dPolylineVertex
 10
7567107.71749260835
 20
5717145.17143257707
 70
32
  0
SEQEND
  5
32
100
AcDbEntity
  8
fundament=sciana
  0
POLYLINE
  5
33
100
AcDbEntity
  8
fundament=sciana
  6
CONTINUOUS
370
18
100
AcDb3dPolyline
 66
1
 70
136
  0
VERTEX
  5
34
100
AcDbEntity
  8
fundament=sciana
100
AcDbVertex
100
AcDb3dPolylineVertex
 10
7567106.55759501457
 20
5717145.37574934401
 70
32
  0
VERTEX
  5
35
100
AcDbEntity
  8
fundament=sciana
100
AcDbVertex
100
AcDb3dPolylineVertex
 10
7567105.93457087316
 20
5717144.71230304427
 70
32
  0
SEQEND
  5
36
100
AcDbEntity
  8
fundament=sciana
  0
POLYLINE
  5
37
100
AcDbEntity
  8
fundament=sciana
  6
CONTINUOUS
370
18
100
AcDb3dPolyline
 66
1
 70
136
  0
VERTEX
  5
38
100
AcDbEntity
  8
fundament=sciana
100
AcDbVertex
100
AcDb3dPolylineVertex
 10
7567103.28668210655
 20
5717145.44269334804
 70
32
  0
VERTEX
  5
39
100
AcDbEntity
  8
fundament=sciana
100
AcDbVertex
100
AcDb3dPolylineVertex
 10
7567102.81093612779
 20
5717144.93606745824
 70
32
  0
SEQEND
  5
3A
100
AcDbEntity
  8
fundament=sciana
  0
POLYLINE
  5
3B
100
AcDbEntity
  8
fundament=sciana
  6
CONTINUOUS
370
18
100
AcDb3dPolyline
 66
1
 70
136
  0
VERTEX
  5
3C
100
AcDbEntity
  8
fundament=sciana
100
AcDbVertex
100
AcDb3dPolylineVertex
 10
7567103.28699999955
 20
5717145.44299999997
 70
32
  0
VERTEX
  5
3D
100
AcDbEntity
  8
fundament=sciana
100
AcDbVertex
100
AcDb3dPolylineVertex
 10
7567107.15776726976
 20
5717141.80784261972
 70
32
  0
SEQEND
  5
3E
100
AcDbEntity
  8
fundament=sciana
  0
POLYLINE
  5
3F
100
AcDbEntity
  8
fundament=sciana
  6
CONTINUOUS
370
18
100
AcDb3dPolyline
 66
1
 70
136
  0
VERTEX
  5
40
100
AcDbEntity
  8
fundament=sciana
100
AcDbVertex
100
AcDb3dPolylineVertex
 10
7567106.41179230064
 20
5717145.51264285296
 70
32
  0
VERTEX
  5
41
100
AcDbEntity
  8
fundament=sciana
100
AcDbVertex
100
AcDb3dPolylineVertex
 10
7567105.78876133263
 20
5717144.84918928333
 70
32
  0
SEQEND
  5
42
100
AcDbEntity
  8
fundament=sciana
  0
POLYLINE
  5
43
100
AcDbEntity
  8
fundament=sciana
  6
CONTINUOUS
370
18
100
AcDb3dPolyline
 66
1
 70
136
  0
VERTEX
  5
44
100
AcDbEntity
  8
fundament=sciana
100
AcDbVertex
100
AcDb3dPolylineVertex
 10
7567102.93560120277
 20
5717146.03295248747
 70
32
  0
VERTEX
  5
45
100
AcDbEntity
  8
fundament=sciana
100
AcDbVertex
100
AcDb3dPolylineVertex
 10
7567102.45985522494
 20
5717145.52632659674
 70
32
  0
SEQEND
  5
46
100
AcDbEntity
  8
fundament=sciana
  0
POLYLINE
  5
47
100
AcDbEntity
  8
fundament=sciana
  6
CONTINUOUS
370
18
100
AcDb3dPolyline
 66
1
 70
136
  0
VERTEX
  5
48
100
AcDbEntity
  8
fundament=sciana
100
AcDbVertex
100
AcDb3dPolylineVertex
 10
7567102.93599999975
 20
5717146.03299999982
 70
32
  0
VERTEX
  5
49
100
AcDbEntity
  8
fundament=sciana
100
AcDbVertex
100
AcDb3dPolylineVertex
 10
7567107.28804270551
 20
5717141.94658862241
 70
32
  0
SEQEND
  5
4A
100
AcDbEntity
  8
fundament=sciana
  0
POLYLINE
  5
4B
100
AcDbEntity
  8
fundament=sciana
  6
CONTINUOUS
370
18
100
AcDb3dPolyline
 66
1
 70
136
  0
VERTEX
  5
4C
100
AcDbEntity
  8
fundament=sciana
100
AcDbVertex
100
AcDb3dPolylineVertex
 10
7567108.65703560505
 20
5717143.40459406562
 70
32
  0
VERTEX
  5
4D
100
AcDbEntity
  8
fundament=sciana
100
AcDbVertex
100
AcDb3dPolylineVertex
 10
7567105.49299999978
 20
5717146.375
 70
32
  0
SEQEND
  5
4E
100
AcDbEntity
  8
fundament=sciana
  0
POLYLINE
  5
4F
100
AcDbEntity
  8
fundament=sciana
  6
CONTINUOUS
370
18
100
AcDb3dPolyline
 66
1
 70
136
  0
VERTEX
  5
50
100
AcDbEntity
  8
fundament=sciana
100
AcDbVertex
100
AcDb3dPolylineVertex
 10
7567107.40606632456
 20
5717144.83972534537
 70
32
  0
VERTEX
  5
51
100
AcDbEntity
  8
fundament=sciana
100
AcDbVertex
100
AcDb3dPolylineVertex
 10
7567105.62319816649
 20
5717146.51366515923
 70
32
  0
SEQEND
  5
52
100
AcDbEntity
  8
fundament=sciana
  0
POLYLINE
  5
53
100
AcDbEntity
  8
fundament=sciana
  6
CONTINUOUS
370
18
100
AcDb3dPolyline
 66
1
 70
136
  0
VERTEX
  5
54
100
AcDbEntity
  8
fundament=sciana
100
AcDbVertex
100
AcDb3dPolylineVertex
 10
7567100.47181894723
 20
5717147.13254792057
 70
32
  0
VERTEX
  5
55
100
AcDbEntity
  8
fundament=sciana
100
AcDbVertex
100
AcDb3dPolylineVertex
 10
7567102.81099999975
 20
5717144.93599999975
 70
32
  0
SEQEND
  5
56
100
AcDbEntity
  8
fundament=sciana
  0
POLYLINE
  5
57
100
AcDbEntity
  8
fundament=sciana
  6
CONTINUOUS
370
18
100
AcDb3dPolyline
 66
1
 70
136
  0
VERTEX
  5
58
100
AcDbEntity
  8
fundament=sciana
100
AcDbVertex
100
AcDb3dPolylineVertex
 10
7567100.60158527642
 20
5717147.27075504698
 70
32
  0
VERTEX
  5
59
100
AcDbEntity
  8
fundament=sciana
100
AcDbVertex
100
AcDb3dPolylineVertex
 10
7567102.45999999996
 20
5717145.5259999996
 70
32
  0
SEQEND
  5
5A
100
AcDbEntity
  8
fundament=sciana
  0
POLYLINE
  5
5B
100
AcDbEntity
  8
fundament=sciana
  6
CONTINUOUS
370
18
100
AcDb3dPolyline
 66
1
 70
136
  0
VERTEX
  5
5C
100
AcDbEntity
  8
fundament=sciana
100
AcDbVertex
100
AcDb3dPolylineVertex
 10
7567107.26218366437
 20
5717148.25878582243
 70
32
  0
VERTEX
  5
5D
100
AcDbEntity
  8
fundament=sciana
100
AcDbVertex
100
AcDb3dPolylineVertex
 10
7567104.12399999984
 20
5717144.91700000036
 70
32
  0
SEQEND
  5
5E
100
AcDbEntity
  8
fundament=sciana
  0
POLYLINE
  5
5F
100
AcDbEntity
  8
fundament=sciana
  6
CONTINUOUS
370
18
100
AcDb3dPolyline
 66
1
 70
136
  0
VERTEX
  5
60
100
AcDbEntity
  8
fundament=sciana
100
AcDbVertex
100
AcDb3dPolylineVertex
 10
7567107.1234358782
 20
5717148.38906431105
 70
32
  0
VERTEX
  5
61
100
AcDbEntity
  8
fundament=sciana
100
AcDbVertex
100
AcDb3dPolylineVertex
 10
7567103.98554108851
 20
5717145.04719853587
 70
32
  0
SEQEND
  5
62
100
AcDbEntity
  8
fundament=sciana
  0
POLYLINE
  5
63
100
AcDbEntity
  8
fundament=sciana
  6
CONTINUOUS
370
18
100
AcDb3dPolyline
 66
1
 70
136
  0
VERTEX
  5
64
100
AcDbEntity
  8
fundament=sciana
100
AcDbVertex
100
AcDb3dPolylineVertex
 10
7567103.91032496374
 20
5717138.34925013315
 30
0.000
 70
32
  0
VERTEX
  5
65
100
AcDbEntity
  8
fundament=sciana
100
AcDbVertex
100
AcDb3dPolylineVertex
 10
7567110.42575773504
 20
5717145.2883193139
 30
0.000
 70
32
  0
SEQEND
  5
66
100
AcDbEntity
  8
fundament=sciana
  0
POLYLINE
  5
67
100
AcDbEntity
  8
fundament=sciana
  6
CONTINUOUS
370
18
100
AcDb3dPolyline
 66
1
 70
136
  0
VERTEX
  5
68
100
AcDbEntity
  8
fundament=sciana
100
AcDbVertex
100
AcDb3dPolylineVertex
 10
7567110.42575773504
 20
5717145.2883193139
 30
0.000
 70
32
  0
VERTEX
  5
69
100
AcDbEntity
  8
fundament=sciana
100
AcDbVertex
100
AcDb3dPolylineVertex
 10
7567105.54966677818
 20
5717149.86676905304
 30
0.000
 70
32
  0
SEQEND
  5
6A
100
AcDbEntity
  8
fundament=sciana
  0
POLYLINE
  5
6B
100
AcDbEntity
  8
fundament=sciana
  6
CONTINUOUS
370
18
100
AcDb3dPolyline
 66
1
 70
136
  0
VERTEX
  5
6C
100
AcDbEntity
  8
fundament=sciana
100
AcDbVertex
100
AcDb3dPolylineVertex
 10
7567105.54966677818
 20
5717149.86676905304
 30
0.000
 70
32
  0
VERTEX
  5
6D
100
AcDbEntity
  8
fundament=sciana
100
AcDbVertex
100
AcDb3dPolylineVertex
 10
7567103.7198556494
 20
5717147.91752611473
 70
32
  0
SEQEND
  5
6E
100
AcDbEntity
  8
fundament=sciana
  0
POLYLINE
  5
6F
100
AcDbEntity
  8
fundament=sciana
  6
CONTINUOUS
370
18
100
AcDb3dPolyline
 66
1
 70
136
  0
VERTEX
  5
70
100
AcDbEntity
  8
fundament=sciana
100
AcDbVertex
100
AcDb3dPolylineVertex
 10
7567103.7198556494
 20
5717147.91752611473
 70
32
  0
VERTEX
  5
71
100
AcDbEntity
  8
fundament=sciana
100
AcDbVertex
100
AcDb3dPolylineVertex
 10
7567102.38543851487
 20
5717149.17064101342
 70
32
  0
SEQEND
  5
72
100
AcDbEntity
  8
fundament=sciana
  0
POLYLINE
  5
73
100
AcDbEntity
  8
fundament=sciana
  6
CONTINUOUS
370
18
100
AcDb3dPolyline
 66
1
 70
136
  0
VERTEX
  5
74
100
AcDbEntity
  8
fundament=sciana
100
AcDbVertex
100
AcDb3dPolylineVertex
 10
7567102.38543851487
 20
5717149.17064101342
 70
32
  0
VERTEX
  5
75
100
AcDbEntity
  8
fundament=sciana
100
AcDbVertex
100
AcDb3dPolylineVertex
 10
7567097.70009651873
 20
5717144.18021457177
 70
32
  0
SEQEND
  5
76
100
AcDbEntity
  8
fundament=sciana
  0
POLYLINE
  5
77
100
AcDbEntity
  8
fundament=sciana
  6
CONTINUOUS
370
18
100
AcDb3dPolyline
 66
1
 70
136
  0
VERTEX
  5
78
100
AcDbEntity
  8
fundament=sciana
100
AcDbVertex
100
AcDb3dPolylineVertex
 10
7567097.70009651873
 20
5717144.18021457177
 70
32
  0
VERTEX
  5
79
100
AcDbEntity
  8
fundament=sciana
100
AcDbVertex
100
AcDb3dPolylineVertex
 10
7567103.91032496374
 20
5717138.34925013315
 30
0.000
 70
32
  0
SEQEND
  5
7A
100
AcDbEntity
  8
fundament=sciana
  0
POLYLINE
  5
7B
100
AcDbEntity
  8
fundament=sciana
  6
CONTINUOUS
370
18
100
AcDb3dPolyline
 66
1
 70
136
  0
VERTEX
  5
7C
100
AcDbEntity
  8
fundament=sciana
100
AcDbVertex
100
AcDb3dPolylineVertex
 10
7567103.92133642361
 20
5717138.00959390122
 30
0.000
 70
32
  0
VERTEX
  5
7D
100
AcDbEntity
  8
fundament=sciana
100
AcDbVertex
100
AcDb3dPolylineVertex
 10
7567110.76540487166
 20
5717145.29933665786
 30
0.000
 70
32
  0
SEQEND
  5
7E
100
AcDbEntity
  8
fundament=sciana
  0
POLYLINE
  5
7F
100
AcDbEntity
  8
fundament=sciana
  6
CONTINUOUS
370
18
100
AcDb3dPolyline
 66
1
 70
136
  0
VERTEX
  5
80
100
AcDbEntity
  8
fundament=sciana
100
AcDbVertex
100
AcDb3dPolylineVertex
 10
7567110.76540487166
 20
5717145.29933665786
 30
0.000
 70
32
  0
VERTEX
  5
81
100
AcDbEntity
  8
fundament=sciana
100
AcDbVertex
100
AcDb3dPolylineVertex
 10
7567105.53887010273
 20
5717150.20646564942
 30
0.000
 70
32
  0
SEQEND
  5
82
100
AcDbEntity
  8
fundament=sciana
  0
POLYLINE
  5
83
100
AcDbEntity
  8
fundament=sciana
  6
CONTINUOUS
370
18
100
AcDb3dPolyline
 66
1
 70
136
  0
VERTEX
  5
84
100
AcDbEntity
  8
fundament=sciana
100
AcDbVertex
100
AcDb3dPolylineVertex
 10
7567105.53887010273
 20
5717150.20646564942
 30
0.000
 70
32
  0
VERTEX
  5
85
100
AcDbEntity
  8
fundament=sciana
100
AcDbVertex
100
AcDb3dPolylineVertex
 10
7567103.70898912195
 20
5717148.25695740432
 70
32
  0
SEQEND
  5
86
100
AcDbEntity
  8
fundament=sciana
  0
POLYLINE
  5
87
100
AcDbEntity
  8
fundament=sciana
  6
CONTINUOUS
370
18
100
AcDb3dPolyline
 66
1
 70
136
  0
VERTEX
  5
88
100
AcDbEntity
  8
fundament=sciana
100
AcDbVertex
100
AcDb3dPolylineVertex
 10
7567103.70898912195
 20
5717148.25695740432
 70
32
  0
VERTEX
  5
89
100
AcDbEntity
  8
fundament=sciana
100
AcDbVertex
100
AcDb3dPolylineVertex
 10
7567102.37451313529
 20
5717149.5101305265
 70
32
  0
SEQEND
  5
8A
100
AcDbEntity
  8
fundament=sciana
  0
POLYLINE
  5
8B
100
AcDbEntity
  8
fundament=sciana
  6
CONTINUOUS
370
18
100
AcDb3dPolyline
 66
1
 70
136
  0
VERTEX
  5
8C
100
AcDbEntity
  8
fundament=sciana
100
AcDbVertex
100
AcDb3dPolylineVertex
 10
7567102.37451313529
 20
5717149.5101305265
 70
32
  0
VERTEX
  5
8D
100
AcDbEntity
  8
fundament=sciana
100
AcDbVertex
100
AcDb3dPolylineVertex
 10
7567097.36086455639
 20
5717144.16951775271
 70
32
  0
SEQEND
  5
8E
100
AcDbEntity
  8
fundament=sciana
  0
POLYLINE
  5
8F
100
AcDbEntity
  8
fundament=sciana
  6
CONTINUOUS
370
18
100
AcDb3dPolyline
 66
1
 70
136
  0
VERTEX
  5
90
100
AcDbEntity
  8
fundament=sciana
100
AcDbVertex
100
AcDb3dPolylineVertex
 10
7567097.36086455639
 20
5717144.16951775271
 70
32
  0
VERTEX
  5
91
100
AcDbEntity
  8
fundament=sciana
100
AcDbVertex
100
AcDb3dPolylineVertex
 10
7567103.92133642361
 20
5717138.00959390122
 30
0.000
 70
32
  0
SEQEND
  5
92
100
AcDbEntity
  8
fundament=sciana
  0
POLYLINE
  5
93
100
AcDbEntity
  8
osie
  6
CONTINUOUS
370
18
100
AcDb3dPolyline
 66
1
 70
136
  0
VERTEX
  5
94
100
AcDbEntity
  8
osie
100
AcDbVertex
100
AcDb3dPolylineVertex
 10
7567097.44296707306
 20
5717144.25740075577
 70
32
  0
VERTEX
  5
95
100
AcDbEntity
  8
osie
100
AcDbVertex
100
AcDb3dPolylineVertex
 10
7567104.00359335821
 20
5717138.09720726963
 70
32
  0
SEQEND
  5
96
100
AcDbEntity
  8
osie
  0
POLYLINE
  5
97
100
AcDbEntity
  8
osie
  6
CONTINUOUS
370
18
100
AcDb3dPolyline
 66
1
 70
136
  0
VERTEX
  5
98
100
AcDbEntity
  8
osie
100
AcDbVertex
100
AcDb3dPolylineVertex
 10
7567103.83360349853
 20
5717138.09196888469
 70
32
  0
VERTEX
  5
99
100
AcDbEntity
  8
osie
100
AcDbVertex
100
AcDb3dPolylineVertex
 10
7567110.67779276799
 20
5717145.3815960912
 70
32
  0
SEQEND
  5
9A
100
AcDbEntity
  8
osie
  0
POLYLINE
  5
9B
100
AcDbEntity
  8
osie
  6
CONTINUOUS
370
18
100
AcDb3dPolyline
 66
1
 70
136
  0
VERTEX
  5
9C
100
AcDbEntity
  8
osie
100
AcDbVertex
100
AcDb3dPolylineVertex
 10
7567102.8709181305
 20
5717145.96407094039
 30
0.000
 70
32
  0
VERTEX
  5
9D
100
AcDbEntity
  8
osie
100
AcDbVertex
100
AcDb3dPolylineVertex
 10
7567107.39832483325
 20
5717141.7129979888
 70
32
  0
SEQEND
  5
9E
100
AcDbEntity
  8
osie
  0
POLYLINE
  5
9F
100
AcDbEntity
  8
osie
  6
CONTINUOUS
370
18
100
AcDb3dPolyline
 66
1
 70
136
  0
VERTEX
  5
A0
100
AcDbEntity
  8
osie
100
AcDbVertex
100
AcDb3dPolylineVertex
 10
7567105.41985297203
 20
5717146.57474426832
 30
0.000
 70
32
  0
VERTEX
  5
A1
100
AcDbEntity
  8
osie
100
AcDbVertex
100
AcDb3dPolylineVertex
 10
7567108.89728103764
 20
5717143.30956371874
 70
32
  0
SEQEND
  5
A2
100
AcDbEntity
  8
osie
  0
POLYLINE
  5
A3
100
AcDbEntity
  8
osie
  6
CONTINUOUS
370
18
100
AcDb3dPolyline
 66
1
 70
136
  0
VERTEX
  5
A4
100
AcDbEntity
  8
osie
100
AcDbVertex
100
AcDb3dPolylineVertex
 10
7567100.36196597759
 20
5717147.3665529266
 70
32
  0
VERTEX
  5
A5
100
AcDbEntity
  8
osie
100
AcDbVertex
100
AcDb3dPolylineVertex
 10
7567102.87630459946
 20
5717145.00567889307
 30
0.000
 70
32
  0
SEQEND
  5
A6
100
AcDbEntity
  8
osie
  0
POLYLINE
  5
A7
100
AcDbEntity
  8
osie
  6
CONTINUOUS
370
18
100
AcDb3dPolyline
 66
1
 70
136
  0
VERTEX
  5
A8
100
AcDbEntity
  8
osie
100
AcDbVertex
100
AcDb3dPolylineVertex
 10
7567103.92492187209
 20
5717144.84340240527
 30
0.000
 70
32
  0
VERTEX
  5
A9
100
AcDbEntity
  8
osie
100
AcDbVertex
100
AcDb3dPolylineVertex
 10
7567107.3573270468
 20
5717148.49919762276
 70
32
  0
SEQEND
  5
AA
100
AcDbEntity
  8
osie
  0
POLYLINE
  5
AB
100
AcDbEntity
  8
osie
  6
CONTINUOUS
370
18
100
AcDb3dPolyline
 66
1
 70
136
  0
VERTEX
  5
AC
100
AcDbEntity
  8
osie
100
AcDbVertex
100
AcDb3dPolylineVertex
 10
7567102.29237728659
 20
5717149.422717629
 70
32
  0
VERTEX
  5
AD
100
AcDbEntity
  8
osie
100
AcDbVertex
100
AcDb3dPolylineVertex
 10
7567103.80173552223
 20
5717148.00548421778
 70
32
  0
SEQEND
  5
AE
100
AcDbEntity
  8
osie
  0
POLYLINE
  5
AF
100
AcDbEntity
  8
osie
  6
CONTINUOUS
370
18
100
AcDb3dPolyline
 66
1
 70
136
  0
VERTEX
  5
B0
100
AcDbEntity
  8
osie
100
AcDbVertex
100
AcDb3dPolylineVertex
 10
7567102.46220124513
 20
5717149.42778204754
 70
32
  0
VERTEX
  5
B1
100
AcDbEntity
  8
osie
100
AcDbVertex
100
AcDb3dPolylineVertex
 10
7567097.44820664823
 20
5717144.0874028774
 70
32
  0
SEQEND
  5
B2
100
AcDbEntity
  8
osie
  0
POLYLINE
  5
B3
100
AcDbEntity
  8
osie
  6
CONTINUOUS
370
18
100
AcDb3dPolyline
 66
1
 70
136
  0
VERTEX
  5
B4
100
AcDbEntity
  8
osie
100
AcDbVertex
100
AcDb3dPolylineVertex
 10
7567110.68303243443
 20
5717145.21160026547
 70
32
  0
VERTEX
  5
B5
100
AcDbEntity
  8
osie
100
AcDbVertex
100
AcDb3dPolylineVertex
 10
7567105.45666813012
 20
5717150.11888977699
 70
32
  0
SEQEND
  5
B6
100
AcDbEntity
  8
osie
  0
POLYLINE
  5
B7
100
AcDbEntity
  8
osie
  6
CONTINUOUS
370
18
100
AcDb3dPolyline
 66
1
 70
136
  0
VERTEX
  5
B8
100
AcDbEntity
  8
osie
100
AcDbVertex
100
AcDb3dPolylineVertex
 10
7567103.63112145476
 20
5717148.00085398741
 70
32
  0
VERTEX
  5
B9
100
AcDbEntity
  8
osie
100
AcDbVertex
100
AcDb3dPolylineVertex
 10
7567105.62559309416
 20
5717150.12513111439
 70
32
  0
SEQEND
  5
BA
100
AcDbEntity
  8
osie
  0
POLYLINE
  5
BB
100
AcDbEntity
  8
otwory
  6
CONTINUOUS
370
18
100
AcDb3dPolyline
 66
1
 70
136
  0
VERTEX
  5
BC
100
AcDbEntity
  8
otwory
100
AcDbVertex
100
AcDb3dPolylineVertex
 10
7567099.32536073215
 20
5717142.65420664568
 70
32
  0
VERTEX
  5
BD
100
AcDbEntity
  8
otwory
100
AcDbVertex
100
AcDb3dPolylineVertex
 10
7567099.16161286179
 20
5717142.47871369775
 70
32
  0
SEQEND
  5
BE
100
AcDbEntity
  8
otwory
  0
POLYLINE
  5
BF
100
AcDbEntity
  8
otwory
  6
CONTINUOUS
370
18
100
AcDb3dPolyline
 66
1
 70
136
  0
VERTEX
  5
C0
100
AcDbEntity
  8
otwory
100
AcDbVertex
100
AcDb3dPolylineVertex
 10
7567098.57495411299
 20
5717143.35878528561
 70
32
  0
VERTEX
  5
C1
100
AcDbEntity
  8
otwory
100
AcDbVertex
100
AcDb3dPolylineVertex
 10
7567098.41083416436
 20
5717143.18365378398
 70
32
  0
SEQEND
  5
C2
100
AcDbEntity
  8
otwory
  0
POLYLINE
  5
C3
100
AcDbEntity
  8
otwory
  6
CONTINUOUS
370
18
100
AcDb3dPolyline
 66
1
 70
136
  0
VERTEX
  5
C4
100
AcDbEntity
  8
otwory
100
AcDbVertex
100
AcDb3dPolylineVertex
 10
7567099.61742646154
 20
5717142.37997762207
 70
32
  0
VERTEX
  5
C5
100
AcDbEntity
  8
otwory
100
AcDbVertex
100
AcDb3dPolylineVertex
 10
7567099.4532767944
 20
5717142.20485723577
 70
32
  0
SEQEND
  5
C6
100
AcDbEntity
  8
otwory
  0
POLYLINE
  5
C7
100
AcDbEntity
  8
otwory
  6
CONTINUOUS
370
18
100
AcDb3dPolyline
 66
1
 70
136
  0
VERTEX
  5
C8
100
AcDbEntity
  8
otwory
100
AcDbVertex
100
AcDb3dPolylineVertex
 10
7567101.54199079797
 20
5717140.57294808887
 70
32
  0
VERTEX
  5
C9
100
AcDbEntity
  8
otwory
100
AcDbVertex
100
AcDb3dPolylineVertex
 10
7567101.37784984056
 20
5717140.39778852928
 70
32
  0
SEQEND
  5
CA
100
AcDbEntity
  8
otwory
  0
POLYLINE
  5
CB
100
AcDbEntity
  8
otwory
  6
CONTINUOUS
370
18
100
AcDb3dPolyline
 66
1
 70
136
  0
VERTEX
  5
CC
100
AcDbEntity
  8
otwory
100
AcDbVertex
100
AcDb3dPolylineVertex
 10
7567101.83359145466
 20
5717140.29915573541
 70
32
  0
VERTEX
  5
CD
100
AcDbEntity
  8
otwory
100
AcDbVertex
100
AcDb3dPolylineVertex
 10
7567101.66946659051
 20
5717140.12397636846
 70
32
  0
SEQEND
  5
CE
100
AcDbEntity
  8
otwory
  0
POLYLINE
  5
CF
100
AcDbEntity
  8
otwory
  6
CONTINUOUS
370
18
100
AcDb3dPolyline
 66
1
 70
136
  0
VERTEX
  5
D0
100
AcDbEntity
  8
otwory
100
AcDbVertex
100
AcDb3dPolylineVertex
 10
7567103.75815579109
 20
5717138.49212620314
 70
32
  0
VERTEX
  5
D1
100
AcDbEntity
  8
otwory
100
AcDbVertex
100
AcDb3dPolylineVertex
 10
7567103.59394028224
 20
5717138.31700095069
 70
32
  0
SEQEND
  5
D2
100
AcDbEntity
  8
otwory
  0
POLYLINE
  5
D3
100
AcDbEntity
  8
otwory
  6
CONTINUOUS
370
18
100
AcDb3dPolyline
 66
1
 70
136
  0
VERTEX
  5
D4
100
AcDbEntity
  8
otwory
100
AcDbVertex
100
AcDb3dPolylineVertex
 10
7567097.53577800095
 20
5717144.005179598
 70
32
  0
VERTEX
  5
D5
100
AcDbEntity
  8
otwory
100
AcDbVertex
100
AcDb3dPolylineVertex
 10
7567097.36086455639
 20
5717144.16951775271
 70
32
  0
SEQEND
  5
D6
100
AcDbEntity
  8
otwory
  0
POLYLINE
  5
D7
100
AcDbEntity
  8
otwory
  6
CONTINUOUS
370
18
100
AcDb3dPolyline
 66
1
 70
136
  0
VERTEX
  5
D8
100
AcDbEntity
  8
otwory
100
AcDbVertex
100
AcDb3dPolylineVertex
 10
7567098.97999005485
 20
5717145.54344793875
 70
32
  0
VERTEX
  5
D9
100
AcDbEntity
  8
otwory
100
AcDbVertex
100
AcDb3dPolylineVertex
 10
7567098.80530409515
 20
5717145.70815615728
 70
32
  0
SEQEND
  5
DA
100
AcDbEntity
  8
otwory
  0
POLYLINE
  5
DB
100
AcDbEntity
  8
otwory
  6
CONTINUOUS
370
18
100
AcDb3dPolyline
 66
1
 70
136
  0
VERTEX
  5
DC
100
AcDbEntity
  8
otwory
100
AcDbVertex
100
AcDb3dPolylineVertex
 10
7567099.59600183275
 20
5717146.19957111403
 70
32
  0
VERTEX
  5
DD
100
AcDbEntity
  8
otwory
100
AcDbVertex
100
AcDb3dPolylineVertex
 10
7567099.42127859313
 20
5717146.36430132203
 70
32
  0
SEQEND
  5
DE
100
AcDbEntity
  8
otwory
  0
POLYLINE
  5
DF
100
AcDbEntity
  8
otwory
  6
CONTINUOUS
370
18
100
AcDb3dPolyline
 66
1
 70
136
  0
VERTEX
  5
E0
100
AcDbEntity
  8
otwory
100
AcDbVertex
100
AcDb3dPolylineVertex
 10
7567101.21816662699
 20
5717147.92736261431
 70
32
  0
VERTEX
  5
E1
100
AcDbEntity
  8
otwory
100
AcDbVertex
100
AcDb3dPolylineVertex
 10
7567101.0433913935
 20
5717148.09219991788
 70
32
  0
SEQEND
  5
E2
100
AcDbEntity
  8
otwory
  0
POLYLINE
  5
E3
100
AcDbEntity
  8
otwory
  6
CONTINUOUS
370
18
100
AcDb3dPolyline
 66
1
 70
136
  0
VERTEX
  5
E4
100
AcDbEntity
  8
otwory
100
AcDbVertex
100
AcDb3dPolylineVertex
 10
7567101.83418480307
 20
5717148.58349260502
 70
32
  0
VERTEX
  5
E5
100
AcDbEntity
  8
otwory
100
AcDbVertex
100
AcDb3dPolylineVertex
 10
7567101.65946528409
 20
5717148.74845095817
 70
32
  0
SEQEND
  5
E6
100
AcDbEntity
  8
otwory
  0
POLYLINE
  5
E7
100
AcDbEntity
  8
otwory
  6
CONTINUOUS
370
18
100
AcDb3dPolyline
 66
1
 70
136
  0
VERTEX
  5
E8
100
AcDbEntity
  8
otwory
100
AcDbVertex
100
AcDb3dPolylineVertex
 10
7567103.74599227402
 20
5717138.17423245683
 70
32
  0
VERTEX
  5
E9
100
AcDbEntity
  8
otwory
100
AcDbVertex
100
AcDb3dPolylineVertex
 10
7567103.92133642361
 20
5717138.00959390122
 30
0.000
 70
32
  0
SEQEND
  5
EA
100
AcDbEntity
  8
otwory
  0
POLYLINE
  5
EB
100
AcDbEntity
  8
otwory
  6
CONTINUOUS
370
18
100
AcDb3dPolyline
 66
1
 70
136
  0
VERTEX
  5
EC
100
AcDbEntity
  8
otwory
100
AcDbVertex
100
AcDb3dPolylineVertex
 10
7567105.19699566532
 20
5717139.71958075091
 70
32
  0
VERTEX
  5
ED
100
AcDbEntity
  8
otwory
100
AcDbVertex
100
AcDb3dPolylineVertex
 10
7567105.37242396176
 20
5717139.55517383665
 70
32
  0
SEQEND
  5
EE
100
AcDbEntity
  8
otwory
  0
POLYLINE
  5
EF
100
AcDbEntity
  8
otwory
  6
CONTINUOUS
370
18
100
AcDb3dPolyline
 66
1
 70
136
  0
VERTEX
  5
F0
100
AcDbEntity
  8
otwory
100
AcDbVertex
100
AcDb3dPolylineVertex
 10
7567105.81303557381
 20
5717140.37567585427
 70
32
  0
VERTEX
  5
F1
100
AcDbEntity
  8
otwory
100
AcDbVertex
100
AcDb3dPolylineVertex
 10
7567105.98844685871
 20
5717140.21131111588
 70
32
  0
SEQEND
  5
F2
100
AcDbEntity
  8
otwory
  0
POLYLINE
  5
F3
100
AcDbEntity
  8
otwory
  6
CONTINUOUS
370
18
100
AcDb3dPolyline
 66
1
 70
136
  0
VERTEX
  5
F4
100
AcDbEntity
  8
otwory
100
AcDbVertex
100
AcDb3dPolylineVertex
 10
7567107.68168963212
 20
5717142.36583065242
 70
32
  0
VERTEX
  5
F5
100
AcDbEntity
  8
otwory
100
AcDbVertex
100
AcDb3dPolylineVertex
 10
7567107.8570087133
 20
5717142.20155059826
 70
32
  0
SEQEND
  5
F6
100
AcDbEntity
  8
otwory
  0
POLYLINE
  5
F7
100
AcDbEntity
  8
otwory
  6
CONTINUOUS
370
18
100
AcDb3dPolyline
 66
1
 70
136
  0
VERTEX
  5
F8
100
AcDbEntity
  8
otwory
100
AcDbVertex
100
AcDb3dPolylineVertex
 10
7567108.29772953968
 20
5717143.02192575578
 70
32
  0
VERTEX
  5
F9
100
AcDbEntity
  8
otwory
100
AcDbVertex
100
AcDb3dPolylineVertex
 10
7567108.47302254569
 20
5717142.85767822247
 70
32
  0
SEQEND
  5
FA
100
AcDbEntity
  8
otwory
  0
POLYLINE
  5
FB
100
AcDbEntity
  8
otwory
  6
CONTINUOUS
370
18
100
AcDb3dPolyline
 66
1
 70
136
  0
VERTEX
  5
FC
100
AcDbEntity
  8
otwory
100
AcDbVertex
100
AcDb3dPolylineVertex
 10
7567109.32462124154
 20
5717144.11503486149
 70
32
  0
VERTEX
  5
FD
100
AcDbEntity
  8
otwory
100
AcDbVertex
100
AcDb3dPolylineVertex
 10
7567109.49962124135
 20
5717143.95103486162
 70
32
  0
SEQEND
  5
FE
100
AcDbEntity
  8
otwory
  0
POLYLINE
  5
FF
100
AcDbEntity
  8
otwory
  6
CONTINUOUS
370
18
100
AcDb3dPolyline
 66
1
 70
136
  0
VERTEX
  5
100
100
AcDbEntity
  8
otwory
100
AcDbVertex
100
AcDb3dPolylineVertex
 10
7567109.940621241
 20
5717144.77103486098
 70
32
  0
VERTEX
  5
101
100
AcDbEntity
  8
otwory
100
AcDbVertex
100
AcDb3dPolylineVertex
 10
7567110.11562124174
 20
5717144.60703486111
 70
32
  0
SEQEND
  5
102
100
AcDbEntity
  8
otwory
  0
POLYLINE
  5
103
100
AcDbEntity
  8
lawa_fundamentowa
  6
CONTINUOUS
370
18
100
AcDb3dPolyline
 66
1
 70
136
  0
VERTEX
  5
104
100
AcDbEntity
  8
lawa_fundamentowa
100
AcDbVertex
100
AcDb3dPolylineVertex
 10
7567097.14800000004
 20
5717144.16299999971
 70
32
  0
VERTEX
  5
105
100
AcDbEntity
  8
lawa_fundamentowa
100
AcDbVertex
100
AcDb3dPolylineVertex
 10
7567103.92767090444
 20
5717137.79696858302
 30
0.000
 70
32
  0
SEQEND
  5
106
100
AcDbEntity
  8
lawa_fundamentowa
  0
POLYLINE
  5
107
100
AcDbEntity
  8
lawa_fundamentowa
  6
CONTINUOUS
370
18
100
AcDb3dPolyline
 66
1
 70
136
  0
VERTEX
  5
108
100
AcDbEntity
  8
lawa_fundamentowa
100
AcDbVertex
100
AcDb3dPolylineVertex
 10
7567097.99607063085
 20
5717144.19000989012
 30
0.000
 70
32
  0
VERTEX
  5
109
100
AcDbEntity
  8
lawa_fundamentowa
100
AcDbVertex
100
AcDb3dPolylineVertex
 10
7567103.90098728705
 20
5717138.6450942494
 30
0.000
 70
32
  0
SEQEND
  5
10A
100
AcDbEntity
  8
lawa_fundamentowa
  0
POLYLINE
  5
10B
100
AcDbEntity
  8
lawa_fundamentowa
  6
CONTINUOUS
370
18
100
AcDb3dPolyline
 66
1
 70
136
  0
VERTEX
  5
10C
100
AcDbEntity
  8
lawa_fundamentowa
100
AcDbVertex
100
AcDb3dPolylineVertex
 10
7567103.90098728705
 20
5717138.6450942494
 30
0.000
 70
32
  0
VERTEX
  5
10D
100
AcDbEntity
  8
lawa_fundamentowa
100
AcDbVertex
100
AcDb3dPolylineVertex
 10
7567110.12993189134
 20
5717145.27898850199
 30
0.000
 70
32
  0
SEQEND
  5
10E
100
AcDbEntity
  8
lawa_fundamentowa
  0
POLYLINE
  5
10F
100
AcDbEntity
  8
lawa_fundamentowa
  6
CONTINUOUS
370
18
100
AcDb3dPolyline
 66
1
 70
136
  0
VERTEX
  5
110
100
AcDbEntity
  8
lawa_fundamentowa
100
AcDbVertex
100
AcDb3dPolylineVertex
 10
7567103.92767090444
 20
5717137.79696858302
 30
0.000
 70
32
  0
VERTEX
  5
111
100
AcDbEntity
  8
lawa_fundamentowa
100
AcDbVertex
100
AcDb3dPolylineVertex
 10
7567110.97802270297
 20
5717145.30567049887
 30
0.000
 70
32
  0
SEQEND
  5
112
100
AcDbEntity
  8
lawa_fundamentowa
  0
POLYLINE
  5
113
100
AcDbEntity
  8
lawa_fundamentowa
  6
CONTINUOUS
370
18
100
AcDb3dPolyline
 66
1
 70
136
  0
VERTEX
  5
114
100
AcDbEntity
  8
lawa_fundamentowa
100
AcDbVertex
100
AcDb3dPolylineVertex
 10
7567102.41101209167
 20
5717148.89190938231
 30
0.000
 70
32
  0
VERTEX
  5
115
100
AcDbEntity
  8
lawa_fundamentowa
100
AcDbVertex
100
AcDb3dPolylineVertex
 10
7567097.99607063085
 20
5717144.19000989012
 30
0.000
 70
32
  0
SEQEND
  5
116
100
AcDbEntity
  8
lawa_fundamentowa
  0
POLYLINE
  5
117
100
AcDbEntity
  8
lawa_fundamentowa
  6
CONTINUOUS
370
18
100
AcDb3dPolyline
 66
1
 70
136
  0
VERTEX
  5
118
100
AcDbEntity
  8
lawa_fundamentowa
100
AcDbVertex
100
AcDb3dPolylineVertex
 10
7567103.72302017547
 20
5717147.65990179125
 30
0.000
 70
32
  0
VERTEX
  5
119
100
AcDbEntity
  8
lawa_fundamentowa
100
AcDbVertex
100
AcDb3dPolylineVertex
 10
7567102.41101209167
 20
5717148.89190938231
 30
0.000
 70
32
  0
SEQEND
  5
11A
100
AcDbEntity
  8
lawa_fundamentowa
  0
POLYLINE
  5
11B
100
AcDbEntity
  8
lawa_fundamentowa
  6
CONTINUOUS
370
18
100
AcDb3dPolyline
 66
1
 70
136
  0
VERTEX
  5
11C
100
AcDbEntity
  8
lawa_fundamentowa
100
AcDbVertex
100
AcDb3dPolylineVertex
 10
7567105.53701827396
 20
5717149.59189976659
 30
0.000
 70
32
  0
VERTEX
  5
11D
100
AcDbEntity
  8
lawa_fundamentowa
100
AcDbVertex
100
AcDb3dPolylineVertex
 10
7567103.72302017547
 20
5717147.65990179125
 30
0.000
 70
32
  0
SEQEND
  5
11E
100
AcDbEntity
  8
lawa_fundamentowa
  0
POLYLINE
  5
11F
100
AcDbEntity
  8
lawa_fundamentowa
  6
CONTINUOUS
370
18
100
AcDb3dPolyline
 66
1
 70
136
  0
VERTEX
  5
120
100
AcDbEntity
  8
lawa_fundamentowa
100
AcDbVertex
100
AcDb3dPolylineVertex
 10
7567110.12993189134
 20
5717145.27898850199
 30
0.000
 70
32
  0
VERTEX
  5
121
100
AcDbEntity
  8
lawa_fundamentowa
100
AcDbVertex
100
AcDb3dPolylineVertex
 10
7567105.53701827396
 20
5717149.59189976659
 30
0.000
 70
32
  0
SEQEND
  5
122
100
AcDbEntity
  8
lawa_fundamentowa
  0
POLYLINE
  5
123
100
AcDbEntity
  8
lawa_fundamentowa
  6
CONTINUOUS
370
18
100
AcDb3dPolyline
 66
1
 70
136
  0
VERTEX
  5
124
100
AcDbEntity
  8
lawa_fundamentowa
100
AcDbVertex
100
AcDb3dPolylineVertex
 10
7567102.38399999961
 20
5717149.74000000022
 70
32
  0
VERTEX
  5
125
100
AcDbEntity
  8
lawa_fundamentowa
100
AcDbVertex
100
AcDb3dPolylineVertex
 10
7567097.14800000004
 20
5717144.16299999971
 70
32
  0
SEQEND
  5
126
100
AcDbEntity
  8
lawa_fundamentowa
  0
POLYLINE
  5
127
100
AcDbEntity
  8
lawa_fundamentowa
  6
CONTINUOUS
370
18
100
AcDb3dPolyline
 66
1
 70
136
  0
VERTEX
  5
128
100
AcDbEntity
  8
lawa_fundamentowa
100
AcDbVertex
100
AcDb3dPolylineVertex
 10
7567103.69632660784
 20
5717148.50803273637
 30
0.000
 70
32
  0
VERTEX
  5
129
100
AcDbEntity
  8
lawa_fundamentowa
100
AcDbVertex
100
AcDb3dPolylineVertex
 10
7567102.38399999961
 20
5717149.74000000022
 70
32
  0
SEQEND
  5
12A
100
AcDbEntity
  8
lawa_fundamentowa
  0
POLYLINE
  5
12B
100
AcDbEntity
  8
lawa_fundamentowa
  6
CONTINUOUS
370
18
100
AcDb3dPolyline
 66
1
 70
136
  0
VERTEX
  5
12C
100
AcDbEntity
  8
lawa_fundamentowa
100
AcDbVertex
100
AcDb3dPolylineVertex
 10
7567105.51032724232
 20
5717150.44003341068
 30
0.000
 70
32
  0
VERTEX
  5
12D
100
AcDbEntity
  8
lawa_fundamentowa
100
AcDbVertex
100
AcDb3dPolylineVertex
 10
7567103.69632660784
 20
5717148.50803273637
 30
0.000
 70
32
  0
SEQEND
  5
12E
100
AcDbEntity
  8
lawa_fundamentowa
  0
POLYLINE
  5
12F
100
AcDbEntity
  8
lawa_fundamentowa
  6
CONTINUOUS
370
18
100
AcDb3dPolyline
 66
1
 70
136
  0
VERTEX
  5
130
100
AcDbEntity
  8
lawa_fundamentowa
100
AcDbVertex
100
AcDb3dPolylineVertex
 10
7567110.97802270297
 20
5717145.30567049887
 30
0.000
 70
32
  0
VERTEX
  5
131
100
AcDbEntity
  8
lawa_fundamentowa
100
AcDbVertex
100
AcDb3dPolylineVertex
 10
7567105.51032724232
 20
5717150.44003341068
 30
0.000
 70
32
  0
SEQEND
  5
132
100
AcDbEntity
  8
lawa_fundamentowa
  0
POINT
  5
133
100
AcDbEntity
  8
0
100
AcDbPoint
 62
0
 10
7567104.21247620601
 20
5717151.21229749452
  0
POINT
  5
134
100
AcDbEntity
  8
0
100
AcDbPoint
 62
0
 10
7567107.1234358782
 20
5717148.38906431105
  0
POINT
  5
135
100
AcDbEntity
  8
0
100
AcDbPoint
 62
0
 10
7567103.98554108851
 20
5717145.04719853587
  0
POINT
  5
136
100
AcDbEntity
  8
0
100
AcDbPoint
 62
0
 10
7567107.26218366437
 20
5717148.25878582243
  0
POINT
  5
137
100
AcDbEntity
  8
0
100
AcDbPoint
 62
0
 10
7567104.12391018495
 20
5717144.91728835274
  0
POINT
  5
138
100
AcDbEntity
  8
0
100
AcDbPoint
 62
0
 10
7567102.93560120277
 20
5717146.03295248747
  0
POINT
  5
139
100
AcDbEntity
  8
0
100
AcDbPoint
 62
0
 10
7567102.45985522494
 20
5717145.52632659674
  0
POINT
  5
13A
100
AcDbEntity
  8
0
100
AcDbPoint
 62
0
 10
7567103.28668210655
 20
5717145.44269334804
  0
POINT
  5
13B
100
AcDbEntity
  8
0
100
AcDbPoint
 62
0
 10
7567102.81093612779
 20
5717144.93606745824
  0
POINT
  5
13C
100
AcDbEntity
  8
0
100
AcDbPoint
 62
0
 10
7567100.47181894723
 20
5717147.13254792057
  0
POINT
  5
13D
100
AcDbEntity
  8
0
100
AcDbPoint
 62
0
 10
7567100.60158527642
 20
5717147.27075504698
  0
POINT
  5
13E
100
AcDbEntity
  8
0
100
AcDbPoint
 62
0
 10
7567107.28804270551
 20
5717141.94658862241
  0
POINT
  5
13F
100
AcDbEntity
  8
0
100
AcDbPoint
 62
0
 10
7567108.78732188232
 20
5717143.54335161392
  0
POINT
  5
140
100
AcDbEntity
  8
0
100
AcDbPoint
 62
0
 10
7567107.98927506618
 20
5717144.29214905575
  0
POINT
  5
141
100
AcDbEntity
  8
0
100
AcDbPoint
 62
0
 10
7567108.30070134997
 20
5717144.62385628745
  0
POINT
  5
142
100
AcDbEntity
  8
0
100
AcDbPoint
 62
0
 10
7567107.71749260835
 20
5717145.17143257707
  0
POINT
  5
143
100
AcDbEntity
  8
0
100
AcDbPoint
 62
0
 10
7567108.65703560505
 20
5717143.40459406562
  0
POINT
  5
144
100
AcDbEntity
  8
0
100
AcDbPoint
 62
0
 10
7567105.4931282606
 20
5717146.37517236639
  0
POINT
  5
145
100
AcDbEntity
  8
0
100
AcDbPoint
 62
0
 10
7567107.40606632456
 20
5717144.83972534537
  0
POINT
  5
146
100
AcDbEntity
  8
0
100
AcDbPoint
 62
0
 10
7567105.62319816649
 20
5717146.51366515923
  0
POINT
  5
147
100
AcDbEntity
  8
0
100
AcDbPoint
 62
0
 10
7567106.41179230064
 20
5717145.51264285296
  0
POINT
  5
148
100
AcDbEntity
  8
0
100
AcDbPoint
 62
0
 10
7567105.78876133263
 20
5717144.84918928333
  0
POINT
  5
149
100
AcDbEntity
  8
0
100
AcDbPoint
 62
0
 10
7567106.55759501457
 20
5717145.37574934401
  0
POINT
  5
14A
100
AcDbEntity
  8
0
100
AcDbPoint
 62
0
 10
7567105.93457087316
 20
5717144.71230304427
  0
POINT
  5
14B
100
AcDbEntity
  8
0
100
AcDbPoint
 62
0
 10
7567104.21004705131
 20
5717151.28940338641
  0
POINT
  5
14C
100
AcDbEntity
  8
0
100
AcDbPoint
 62
0
 10
7567097.70009651873
 20
5717144.18021457177
  0
POINT
  5
14D
100
AcDbEntity
  8
0
100
AcDbPoint
 62
0
 10
7567097.53577800095
 20
5717144.005179598
  0
POINT
  5
14E
100
AcDbEntity
  8
0
100
AcDbPoint
 62
0
 10
7567097.5251299981
 20
5717144.34449573606
  0
POINT
  5
14F
100
AcDbEntity
  8
0
100
AcDbPoint
 62
0
 10
7567104.08566249721
 20
5717138.18462061416
  0
POINT
  5
150
100
AcDbEntity
  8
0
100
AcDbPoint
 62
0
 10
7567103.74599227402
 20
5717138.17423245683
  0
TEXT
  5
151
100
AcDbEntity
  8
fundament=sciana
370
5
100
AcDbText
 39
0.05
 10
7567101.61754416768
 20
5717140.61801995989
 40
0.10
  1
-0.400-
 50
-43.20
 41
0.66
  7
STANDARD
100
AcDbText
  0
TEXT
  5
152
100
AcDbEntity
  8
fundament=sciana
370
5
100
AcDbText
 39
0.05
 10
7567102.72554416768
 20
5717139.57701995969
 40
0.10
  1
-2.640-
 50
-43.20
 41
0.66
  7
STANDARD
100
AcDbText
  0
TEXT
  5
153
100
AcDbEntity
  8
fundament=sciana
370
5
100
AcDbText
 39
0.05
 10
7567100.29243049026
 20
5717141.82079574373
 40
0.10
  1
-2.640-
 50
-43.20
 41
0.66
  7
STANDARD
100
AcDbText
  0
TEXT
  5
154
100
AcDbEntity
  8
fundament=sciana
370
5
100
AcDbText
 39
0.05
 10
7567099.40128522646
 20
5717142.69921253063
 40
0.10
  1
-0.400-
 50
-43.30
 41
0.66
  7
STANDARD
100
AcDbText
  0
TEXT
  5
155
100
AcDbEntity
  8
fundament=sciana
370
5
100
AcDbText
 39
0.05
 10
7567098.48276838288
 20
5717143.56140628271
 40
0.10
  1
-2.20-
 50
-43.20
 41
0.66
  7
STANDARD
100
AcDbText
  0
TEXT
  5
156
100
AcDbEntity
  8
fundament=sciana
370
5
100
AcDbText
 39
0.05
 10
7567100.98301310278
 20
5717141.46234971378
 40
0.10
  1
-8.460-
 50
-43.00
 41
0.66
  7
STANDARD
100
AcDbText
  0
TEXT
  5
157
100
AcDbEntity
  8
fundament=sciana
370
5
100
AcDbText
 39
0.05
 10
7567106.24539714586
 20
5717149.23550009355
 40
0.08
  1
-2.158-
 50
-43.20
 41
0.66
  7
STANDARD
100
AcDbText
  0
TEXT
  5
158
100
AcDbEntity
  8
fundament=sciana
370
5
100
AcDbText
 39
0.05
 10
7567108.75289714616
 20
5717146.88100009225
 40
0.08
  1
-4.340-
 50
-43.20
 41
0.66
  7
STANDARD
100
AcDbText
  0
TEXT
  5
159
100
AcDbEntity
  8
fundament=sciana
370
5
100
AcDbText
 39
0.05
 10
7567109.4989999067
 20
5717144.32439714577
 40
0.08
  1
-2.394-
 50
-313.20
 41
0.66
  7
STANDARD
100
AcDbText
  0
TEXT
  5
15A
100
AcDbEntity
  8
fundament=sciana
370
5
100
AcDbText
 39
0.05
 10
7567107.86499990709
 20
5717142.58489714563
 40
0.08
  1
-2.000-
 50
-313.20
 41
0.66
  7
STANDARD
100
AcDbText
  0
TEXT
  5
15B
100
AcDbEntity
  8
fundament=sciana
370
5
100
AcDbText
 39
0.05
 10
7567105.42649990693
 20
5717139.98739714641
 40
0.08
  1
-4.745-
 50
-313.20
 41
0.66
  7
STANDARD
100
AcDbText
  0
TEXT
  5
15C
100
AcDbEntity
  8
fundament=sciana
370
5
100
AcDbText
 39
0.05
 10
7567105.61489714589
 20
5717143.53950009309
 40
0.08
  1
-4.340-
 50
-43.20
 41
0.66
  7
STANDARD
100
AcDbText
  0
TEXT
  5
15D
100
AcDbEntity
  8
fundament=sciana
370
5
100
AcDbText
 39
0.05
 10
7567104.70099990629
 20
5717145.55489714537
 40
0.08
  1
-2.000-
 50
-313.20
 41
0.66
  7
STANDARD
100
AcDbText
  0
TEXT
  5
15E
100
AcDbEntity
  8
fundament=sciana
370
5
100
AcDbText
 39
0.05
 10
7567105.86139714532
 20
5717146.05150009319
 40
0.08
  1
-1.260-
 50
-43.20
 41
0.66
  7
STANDARD
100
AcDbText
  0
TEXT
  5
15F
100
AcDbEntity
  8
fundament=sciana
370
5
100
AcDbText
 39
0.05
 10
7567105.99299990665
 20
5717145.08989714552
 40
0.08
  1
-0.911-
 50
-313.20
 41
0.66
  7
STANDARD
100
AcDbText
  0
TEXT
  5
160
100
AcDbEntity
  8
fundament=sciana
370
5
100
AcDbText
 39
0.05
 10
7567105.77089714538
 20
5717144.8880000934
 40
0.08
  1
-0.200-
 50
-43.20
 41
0.66
  7
STANDARD
100
AcDbText
  0
TEXT
  5
161
100
AcDbEntity
  8
fundament=sciana
370
5
100
AcDbText
 39
0.05
 10
7567106.1389999073
 20
5717144.95289714541
 40
0.08
  1
-0.911-
 50
-313.20
 41
0.66
  7
STANDARD
100
AcDbText
  0
TEXT
  5
162
100
AcDbEntity
  8
fundament=sciana
370
5
100
AcDbText
 39
0.05
 10
7567107.51639714558
 20
5717144.4980000928
 40
0.08
  1
-2.879-
 50
-43.20
 41
0.66
  7
STANDARD
100
AcDbText
  0
TEXT
  5
163
100
AcDbEntity
  8
fundament=sciana
370
5
100
AcDbText
 39
0.05
 10
7567108.29689714592
 20
5717144.0250000935
 40
0.08
  1
-1.094-
 50
-43.20
 41
0.66
  7
STANDARD
100
AcDbText
  0
TEXT
  5
164
100
AcDbEntity
  8
fundament=sciana
370
5
100
AcDbText
 39
0.05
 10
7567108.0374999065
 20
5717144.36689714622
 40
0.08
  1
-0.456-
 50
-313.20
 41
0.66
  7
STANDARD
100
AcDbText
  0
TEXT
  5
165
100
AcDbEntity
  8
fundament=sciana
370
5
100
AcDbText
 39
0.05
 10
7567107.91770966165
 20
5717145.0048409244
 40
0.08
  1
-0.800-
 50
-43.10
 41
0.66
  7
STANDARD
100
AcDbText
  0
TEXT
  5
166
100
AcDbEntity
  8
fundament=sciana
370
5
100
AcDbText
 39
0.05
 10
7567107.45399990678
 20
5717144.91439714562
 40
0.08
  1
-0.454-
 50
-313.20
 41
0.66
  7
STANDARD
100
AcDbText
  0
TEXT
  5
167
100
AcDbEntity
  8
fundament=sciana
370
5
100
AcDbText
 39
0.05
 10
7567106.42339714523
 20
5717145.7845000932
 40
0.08
  1
-2.446-
 50
-43.20
 41
0.66
  7
STANDARD
100
AcDbText
  0
TEXT
  5
168
100
AcDbEntity
  8
fundament=sciana
370
5
100
AcDbText
 39
0.05
 10
7567106.33499990683
 20
5717147.29539714567
 40
0.08
  1
-2.394-
 50
-313.20
 41
0.66
  7
STANDARD
100
AcDbText
  0
TEXT
  5
169
100
AcDbEntity
  8
fundament=sciana
370
5
100
AcDbText
 39
0.05
 10
7567105.44699990656
 20
5717146.62689714599
 40
0.08
  1
-4.584-
 50
-313.20
 41
0.66
  7
STANDARD
100
AcDbText
  0
TEXT
  5
16A
100
AcDbEntity
  8
fundament=sciana
370
5
100
AcDbText
 39
0.05
 10
7567103.36989714485
 20
5717145.6475000931
 40
0.08
  1
-1.440-
 50
-43.20
 41
0.66
  7
STANDARD
100
AcDbText
  0
TEXT
  5
16B
100
AcDbEntity
  8
fundament=sciana
370
5
100
AcDbText
 39
0.05
 10
7567102.5904999068
 20
5717145.68839714583
 40
0.08
  1
-0.695-
 50
-313.20
 41
0.66
  7
STANDARD
100
AcDbText
  0
TEXT
  5
16C
100
AcDbEntity
  8
fundament=sciana
370
5
100
AcDbText
 39
0.05
 10
7567101.43989714514
 20
5717146.50600009225
 40
0.08
  1
-2.549-
 50
-43.20
 41
0.66
  7
STANDARD
100
AcDbText
  0
TEXT
  5
16D
100
AcDbEntity
  8
fundament=sciana
370
5
100
AcDbText
 39
0.05
 10
7567101.38599990681
 20
5717148.12989714555
 40
0.08
  1
-2.606-
 50
-313.20
 41
0.66
  7
STANDARD
100
AcDbText
  0
TEXT
  5
16E
100
AcDbEntity
  8
fundament=sciana
370
5
100
AcDbText
 39
0.05
 10
7567102.95689714607
 20
5717148.6475000931
 40
0.08
  1
-1.829-
 50
-43.20
 41
0.66
  7
STANDARD
100
AcDbText
  0
TEXT
  5
16F
100
AcDbEntity
  8
fundament=sciana
370
5
100
AcDbText
 39
0.05
 10
7567104.51449990645
 20
5717148.78839714546
 40
0.08
  1
-2.651-
 50
-313.20
 41
0.66
  7
STANDARD
100
AcDbText
  0
TEXT
  5
170
100
AcDbEntity
  8
fundament=sciana
370
5
100
AcDbText
 39
0.05
 10
7567108.06089714542
 20
5717147.86000009254
 40
0.08
  1
-7.169-
 50
-43.20
 41
0.66
  7
STANDARD
100
AcDbText
  0
TEXT
  5
171
100
AcDbEntity
  8
fundament=sciana
370
5
100
AcDbText
 39
0.05
 10
7567102.94827294629
 20
5717148.98931744695
 40
0.08
  1
-1.830-
 50
-43.40
 41
0.66
  7
STANDARD
100
AcDbText
  0
TEXT
  5
172
100
AcDbEntity
  8
fundament=sciana
370
5
100
AcDbText
 39
0.05
 10
7567104.5139999073
 20
5717149.13839714508
 40
0.08
  1
-2.680-
 50
-313.20
 41
0.66
  7
STANDARD
100
AcDbText
  0
TEXT
  5
173
100
AcDbEntity
  8
fundament=sciana
370
5
100
AcDbText
 39
0.05
 10
7567099.75999990664
 20
5717146.7488971455
 40
0.08
  1
-7.324-
 50
-313.20
 41
0.66
  7
STANDARD
100
AcDbText
  0
TEXT
  5
174
100
AcDbEntity
  8
fundament=sciana
370
5
100
AcDbText
 39
0.05
 10
7567107.35816340521
 20
5717141.51294439193
 40
0.08
  1
-9.998-
 50
-313.20
 41
0.66
  7
STANDARD
100
AcDbText
  0
TEXT
  5
175
100
AcDbEntity
  8
fundament=sciana
370
9
100
AcDbText
 39
0.09
 10
7567104.20446188189
 20
5717144.64783323091
 40
0.20
  1
-13.112-
 50
-355.10
 41
0.66
  7
STANDARD
100
AcDbText
  0
TEXT
  5
176
100
AcDbEntity
  8
fundament=sciana
370
9
100
AcDbText
 39
0.09
 10
7567103.95392506663
 20
5717143.75710295606
 40
0.20
  1
-13.112-
 50
-271.30
 41
0.66
  7
STANDARD
100
AcDbText
  0
TEXT
  5
177
100
AcDbEntity
  8
osie
370
5
100
AcDbText
 39
0.05
 10
7567099.12504416797
 20
5717135.68801996019
 40
0.10
  1
-3.115-
 50
-43.20
 41
0.66
  7
STANDARD
100
AcDbText
  0
TEXT
  5
178
100
AcDbEntity
  8
osie
370
5
100
AcDbText
 39
0.05
 10
7567096.88154416718
 20
5717137.79451995995
 40
0.10
  1
-3.040-
 50
-43.20
 41
0.66
  7
STANDARD
100
AcDbText
  0
TEXT
  5
179
100
AcDbEntity
  8
osie
370
5
100
AcDbText
 39
0.05
 10
7567094.86404416803
 20
5717139.68901995942
 40
0.10
  1
-2.495-
 50
-43.20
 41
0.66
  7
STANDARD
100
AcDbText
  0
TEXT
  5
17A
100
AcDbEntity
  8
osie
370
5
100
AcDbText
 39
0.05
 10
7567102.74436644372
 20
5717145.36606306117
 40
0.10
  1
-0.695-
 50
-313.00
 41
0.66
  7
STANDARD
100
AcDbText
  0
TEXT
  5
17B
100
AcDbEntity
  8
osie
100
AcDbText
 10
7567105.61373668443
 20
5717150.09994601551
 40
0.02
  1
-0.120-
 50
-133.60
 41
0.66
  7
STANDARD
100
AcDbText
  0
TEXT
  5
17C
100
AcDbEntity
  8
osie
100
AcDbText
 10
7567105.61589065939
 20
5717149.93166339863
 40
0.02
  1
-0.120-
 50
-132.60
 41
0.66
  7
STANDARD
100
AcDbText
  0
TEXT
  5
17D
100
AcDbEntity
  8
osie
370
5
100
AcDbText
 39
0.05
 10
7567104.52633165661
 20
5717148.96642076876
 40
0.08
  1
-2.674-
 50
-313.20
 41
0.66
  7
STANDARD
100
AcDbText
  0
TEXT
  5
17E
100
AcDbEntity
  8
osie
100
AcDbText
 10
7567103.64508526679
 20
5717148.02177122701
 40
0.02
  1
-0.120-
 50
-313.30
 41
0.66
  7
STANDARD
100
AcDbText
  0
TEXT
  5
17F
100
AcDbEntity
  8
osie
100
AcDbText
 10
7567103.73463061452
 20
5717148.07329535764
 40
0.02
  1
-0.122-
 50
-43.00
 41
0.66
  7
STANDARD
100
AcDbText
  0
TEXT
  5
180
100
AcDbEntity
  8
osie
100
AcDbText
 10
7567103.72941246256
 20
5717148.24303337093
 40
0.02
  1
-0.119-
 50
-43.60
 41
0.66
  7
STANDARD
100
AcDbText
  0
TEXT
  5
181
100
AcDbEntity
  8
osie
100
AcDbText
 10
7567105.47727122624
 20
5717150.10541473329
 40
0.02
  1
-0.118-
 50
-43.30
 41
0.66
  7
STANDARD
100
AcDbText
  0
TEXT
  5
182
100
AcDbEntity
  8
osie
100
AcDbText
 10
7567105.48084576242
 20
5717149.93310511485
 40
0.02
  1
-0.121-
 50
-41.30
 41
0.66
  7
STANDARD
100
AcDbText
  0
TEXT
  5
183
100
AcDbEntity
  8
osie
100
AcDbText
 10
7567110.61613061465
 20
5717145.27979535796
 40
0.02
  1
-0.120-
 50
-43.00
 41
0.66
  7
STANDARD
100
AcDbText
  0
TEXT
  5
184
100
AcDbEntity
  8
osie
100
AcDbText
 10
7567110.60958526656
 20
5717145.31527122576
 40
0.02
  1
-0.121-
 50
-313.30
 41
0.66
  7
STANDARD
100
AcDbText
  0
TEXT
  5
185
100
AcDbEntity
  8
osie
100
AcDbText
 10
7567110.43977139052
 20
5717145.30948277097
 40
0.02
  1
-0.120-
 50
-311.60
 41
0.66
  7
STANDARD
100
AcDbText
  0
TEXT
  5
186
100
AcDbEntity
  8
osie
100
AcDbText
 10
7567110.44694410637
 20
5717145.27413504757
 40
0.02
  1
-0.120-
 50
-42.60
 41
0.66
  7
STANDARD
100
AcDbText
  0
TEXT
  5
187
100
AcDbEntity
  8
osie
100
AcDbText
 10
7567108.8307712255
 20
5717143.37791473325
 40
0.02
  1
-0.120-
 50
-43.30
 41
0.66
  7
STANDARD
100
AcDbText
  0
TEXT
  5
188
100
AcDbEntity
  8
osie
100
AcDbText
 10
7567108.74313061405
 20
5717143.45979535766
 40
0.02
  1
-0.120-
 50
-43.00
 41
0.66
  7
STANDARD
100
AcDbText
  0
TEXT
  5
189
100
AcDbEntity
  8
osie
100
AcDbText
 10
7567103.84820464253
 20
5717138.11313061416
 40
0.02
  1
-0.120-
 50
-313.00
 41
0.66
  7
STANDARD
100
AcDbText
  0
TEXT
  5
18A
100
AcDbEntity
  8
osie
100
AcDbText
 10
7567103.9372712262
 20
5717138.16541473288
 40
0.02
  1
-0.121-
 50
-43.30
 41
0.66
  7
STANDARD
100
AcDbText
  0
TEXT
  5
18B
100
AcDbEntity
  8
osie
100
AcDbText
 10
7567103.93113061413
 20
5717138.33479535766
 40
0.02
  1
-0.120-
 50
-43.00
 41
0.66
  7
STANDARD
100
AcDbText
  0
TEXT
  5
18C
100
AcDbEntity
  8
osie
100
AcDbText
 10
7567103.84286495298
 20
5717138.2819441054
 40
0.02
  1
-0.120-
 50
-312.60
 41
0.66
  7
STANDARD
100
AcDbText
  0
TEXT
  5
18D
100
AcDbEntity
  8
osie
100
AcDbText
 10
7567097.46258526668
 20
5717144.10827122629
 40
0.02
  1
-0.121-
 50
-313.30
 41
0.66
  7
STANDARD
100
AcDbText
  0
TEXT
  5
18E
100
AcDbEntity
  8
osie
100
AcDbText
 10
7567097.46413061395
 20
5717144.24279535748
 40
0.02
  1
-0.120-
 50
-43.00
 41
0.66
  7
STANDARD
100
AcDbText
  0
TEXT
  5
18F
100
AcDbEntity
  8
osie
100
AcDbText
 10
7567097.63220464252
 20
5717144.11413061433
 40
0.02
  1
-0.120-
 50
-313.00
 41
0.66
  7
STANDARD
100
AcDbText
  0
TEXT
  5
190
100
AcDbEntity
  8
osie
100
AcDbText
 10
7567102.39420464262
 20
5717149.36113061383
 40
0.02
  1
-0.120-
 50
-313.00
 41
0.66
  7
STANDARD
100
AcDbText
  0
TEXT
  5
191
100
AcDbEntity
  8
osie
100
AcDbText
 10
7567102.31327122636
 20
5717149.4084147336
 40
0.02
  1
-0.121-
 50
-43.30
 41
0.66
  7
STANDARD
100
AcDbText
  0
TEXT
  5
192
100
AcDbEntity
  8
osie
100
AcDbText
 10
7567102.39886495285
 20
5717149.19194410555
 40
0.02
  1
-0.120-
 50
-312.60
 41
0.66
  7
STANDARD
100
AcDbText
  0
TEXT
  5
193
100
AcDbEntity
  8
osie
100
AcDbText
 10
7567102.31794410571
 20
5717149.23813504726
 40
0.02
  1
-0.120-
 50
-42.60
 41
0.66
  7
STANDARD
100
AcDbText
  0
TEXT
  5
194
100
AcDbEntity
  8
osie
100
AcDbText
 10
7567103.64108526614
 20
5717148.19077122677
 40
0.02
  1
-0.120-
 50
-313.30
 41
0.66
  7
STANDARD
100
AcDbText
  0
TEXT
  5
195
100
AcDbEntity
  8
osie
370
5
100
AcDbText
 39
0.05
 10
7567099.85383165628
 20
5717146.66092076898
 40
0.08
  1
-7.084-
 50
-313.20
 41
0.66
  7
STANDARD
100
AcDbText
  0
TEXT
  5
196
100
AcDbEntity
  8
osie
370
5
100
AcDbText
 39
0.05
 10
7567102.94992076885
 20
5717148.81566834357
 40
0.08
  1
-1.829-
 50
-43.20
 41
0.66
  7
STANDARD
100
AcDbText
  0
TEXT
  5
197
100
AcDbEntity
  8
osie
370
5
100
AcDbText
 39
0.05
 10
7567107.97789714578
 20
5717147.77350009233
 40
0.08
  1
-6.930-
 50
-43.20
 41
0.66
  7
STANDARD
100
AcDbText
  0
TEXT
  5
198
100
AcDbEntity
  8
osie
370
5
100
AcDbText
 39
0.05
 10
7567107.3841922516
 20
5717141.84472045396
 40
0.08
  1
-9.758-
 50
-133.40
 41
0.66
  7
STANDARD
100
AcDbText
  0
TEXT
  5
199
100
AcDbEntity
  8
osie
370
5
100
AcDbText
 39
0.05
 10
7567109.59499990661
 20
5717144.25189714599
 40
0.08
  1
-2.608-
 50
-313.20
 41
0.66
  7
STANDARD
100
AcDbText
  0
TEXT
  5
19A
100
AcDbEntity
  8
osie
370
5
100
AcDbText
 39
0.05
 10
7567107.95299990661
 20
5717142.50239714514
 40
0.08
  1
-2.190-
 50
-313.20
 41
0.66
  7
STANDARD
100
AcDbText
  0
TEXT
  5
19B
100
AcDbEntity
  8
osie
370
5
100
AcDbText
 39
0.05
 10
7567105.50599990692
 20
5717139.89639714547
 40
0.08
  1
-4.959-
 50
-313.20
 41
0.66
  7
STANDARD
100
AcDbText
  0
TEXT
  5
19C
100
AcDbEntity
  8
osie
370
5
100
AcDbText
 39
0.05
 10
7567100.63239714596
 20
5717141.28500009328
 40
0.08
  1
-8.758-
 50
-43.20
 41
0.66
  7
STANDARD
100
AcDbText
  0
TEXT
  5
19D
100
AcDbEntity
  8
osie
370
5
100
AcDbText
 39
0.05
 10
7567105.56599990651
 20
5717146.61489714589
 40
0.08
  1
-4.919-
 50
-313.20
 41
0.66
  7
STANDARD
100
AcDbText
  0
TEXT
  5
19E
100
AcDbEntity
  8
osie
370
5
100
AcDbText
 39
0.05
 10
7567107.05839714501
 20
5717145.05850009248
 40
0.08
  1
-4.555-
 50
-43.20
 41
0.66
  7
STANDARD
100
AcDbText
  0
TEXT
  5
19F
100
AcDbEntity
  8
osie
370
5
100
AcDbText
 39
0.05
 10
7567105.55939714517
 20
5717143.46150009334
 40
0.08
  1
-4.555-
 50
-43.20
 41
0.66
  7
STANDARD
100
AcDbText
  0
TEXT
  5
1A0
100
AcDbEntity
  8
osie
370
5
100
AcDbText
 39
0.05
 10
7567103.33939714637
 20
5717145.54600009322
 40
0.08
  1
-1.535-
 50
-43.20
 41
0.66
  7
STANDARD
100
AcDbText
  0
TEXT
  5
1A1
100
AcDbEntity
  8
osie
370
5
100
AcDbText
 39
0.05
 10
7567101.57189714629
 20
5717146.25250009261
 40
0.08
  1
-3.328-
 50
-43.20
 41
0.66
  7
STANDARD
100
AcDbText
  0
TEXT
  5
1A2
100
AcDbEntity
  8
osie
100
AcDbText
 10
7567097.63294410519
 20
5717144.24813504703
 40
0.02
  1
-0.120-
 50
-42.60
 41
0.66
  7
STANDARD
100
AcDbText
  0
TEXT
  5
1A3
100
AcDbEntity
  8
otwory
370
5
100
AcDbText
 39
0.05
 10
7567108.11499161273
 20
5717142.43292188086
 40
0.06
  1
-0.900-
 50
-313.20
 41
0.66
  7
STANDARD
100
AcDbText
  0
TEXT
  5
1A4
100
AcDbEntity
  8
otwory
370
5
100
AcDbText
 39
0.05
 10
7567110.39049161319
 20
5717144.85592188127
 40
0.06
  1
-0.949-
 50
-313.20
 41
0.66
  7
STANDARD
100
AcDbText
  0
TEXT
  5
1A5
100
AcDbEntity
  8
otwory
370
5
100
AcDbText
 39
0.05
 10
7567109.75799161289
 20
5717144.18192188162
 40
0.06
  1
-0.900-
 50
-313.20
 41
0.66
  7
STANDARD
100
AcDbText
  0
TEXT
  5
1A6
100
AcDbEntity
  8
otwory
370
5
100
AcDbText
 39
0.05
 10
7567108.93649161328
 20
5717143.30742188171
 40
0.06
  1
-1.500-
 50
-313.20
 41
0.66
  7
STANDARD
100
AcDbText
  0
TEXT
  5
1A7
100
AcDbEntity
  8
otwory
370
5
100
AcDbText
 39
0.05
 10
7567106.8724916121
 20
5717141.10942188092
 40
0.06
  1
-2.731-
 50
-313.20
 41
0.66
  7
STANDARD
100
AcDbText
  0
TEXT
  5
1A8
100
AcDbEntity
  8
otwory
370
5
100
AcDbText
 39
0.05
 10
7567105.6299916124
 20
5717139.78592188098
 40
0.06
  1
-0.900-
 50
-313.20
 41
0.66
  7
STANDARD
100
AcDbText
  0
TEXT
  5
1A9
100
AcDbEntity
  8
otwory
370
5
100
AcDbText
 39
0.05
 10
7567104.59649161342
 20
5717138.68542188127
 40
0.06
  1
-2.120-
 50
-313.20
 41
0.66
  7
STANDARD
100
AcDbText
  0
TEXT
  5
1AA
100
AcDbEntity
  8
otwory
370
5
100
AcDbText
 39
0.05
 10
7567103.66042188182
 20
5717138.2135083871
 40
0.06
  1
-0.449-
 50
-43.20
 41
0.66
  7
STANDARD
100
AcDbText
  0
TEXT
  5
1AB
100
AcDbEntity
  8
otwory
370
5
100
AcDbText
 39
0.05
 10
7567102.53442188166
 20
5717139.27050838713
 40
0.06
  1
-2.640-
 50
-43.20
 41
0.66
  7
STANDARD
100
AcDbText
  0
TEXT
  5
1AC
100
AcDbEntity
  8
otwory
370
5
100
AcDbText
 39
0.05
 10
7567101.42650930863
 20
5717140.3111777436
 40
0.06
  1
-0.400-
 50
-43.30
 41
0.66
  7
STANDARD
100
AcDbText
  0
TEXT
  5
1AD
100
AcDbEntity
  8
otwory
370
5
100
AcDbText
 39
0.05
 10
7567100.31950930972
 20
5717141.35267774388
 40
0.06
  1
-2.640-
 50
-43.30
 41
0.66
  7
STANDARD
100
AcDbText
  0
TEXT
  5
1AE
100
AcDbEntity
  8
otwory
370
5
100
AcDbText
 39
0.05
 10
7567099.21116136853
 20
5717142.39249940403
 40
0.06
  1
-0.400-
 50
-42.90
 41
0.66
  7
STANDARD
100
AcDbText
  0
TEXT
  5
1AF
100
AcDbEntity
  8
otwory
370
5
100
AcDbText
 39
0.05
 10
7567098.68942188099
 20
5717142.88150838763
 40
0.06
  1
-1.030-
 50
-43.20
 41
0.66
  7
STANDARD
100
AcDbText
  0
TEXT
  5
1B0
100
AcDbEntity
  8
otwory
370
5
100
AcDbText
 39
0.05
 10
7567097.78892188147
 20
5717143.72700838745
 40
0.06
  1
-1.440-
 50
-43.20
 41
0.66
  7
STANDARD
100
AcDbText
  0
TEXT
  5
1B1
100
AcDbEntity
  8
otwory
370
5
100
AcDbText
 39
0.05
 10
7567098.03432225622
 20
5717144.84050930943
 40
0.06
  1
-2.110-
 50
-313.30
 41
0.66
  7
STANDARD
100
AcDbText
  0
TEXT
  5
1B2
100
AcDbEntity
  8
otwory
370
5
100
AcDbText
 39
0.05
 10
7567099.06682225689
 20
5717145.9355093101
 40
0.06
  1
-0.901-
 50
-313.30
 41
0.66
  7
STANDARD
100
AcDbText
  0
TEXT
  5
1B3
100
AcDbEntity
  8
otwory
370
5
100
AcDbText
 39
0.05
 10
7567100.18483078294
 20
5717147.12874791026
 40
0.06
  1
-2.369-
 50
-313.00
 41
0.66
  7
STANDARD
100
AcDbText
  0
TEXT
  5
1B4
100
AcDbEntity
  8
otwory
370
5
100
AcDbText
 39
0.05
 10
7567101.30099161249
 20
5717148.32292188145
 40
0.06
  1
-0.900-
 50
-313.20
 41
0.66
  7
STANDARD
100
AcDbText
  0
TEXT
  5
1B5
100
AcDbEntity
  8
otwory
370
5
100
AcDbText
 39
0.05
 10
7567101.96649161261
 20
5717149.03192188125
 40
0.06
  1
-1.045-
 50
-313.20
 41
0.66
  7
STANDARD
100
AcDbText
  0
ENDSEC
  0
SECTION
  2
OBJECTS
  0
DICTIONARY
  5
1B6
330
0
100
AcDbDictionary
280
0
281
1
  3
ACAD_GROUP
350
1B7
  3
ACAD_LAYOUT
350
1B8
  3
ACAD_MLINESTYLE
350
1B9
  3
ACAD_PLOTSETTINGS
350
1BA
  3
ACAD_PLOTSTYLENAME
350
1BB
  0
DICTIONARY
  5
1B7
102
{ACAD_REACTORS
330
1B6
102
}
330
1B6
100
AcDbDictionary
280
0
281
1
  0
DICTIONARY
  5
1B8
102
{ACAD_REACTORS
330
1B6
102
}
330
1B6
100
AcDbDictionary
280
0
281
1
  3
Layout
350
1A
  3
Model
350
18
  0
DICTIONARY
  5
1B9
102
{ACAD_REACTORS
330
1B6
102
}
330
1B6
100
AcDbDictionary
280
0
281
1
  3
Standard
350
1BC
  0
DICTIONARY
  5
1BA
102
{ACAD_REACTORS
330
1B6
102
}
330
1B6
100
AcDbDictionary
280
0
281
1
  0
ACDBDICTIONARYWDFLT
  5
1BB
102
{ACAD_REACTORS
330
1B6
102
}
330
1B6
100
AcDbDictionary
281
1
  3
Normal
350
9
100
AcDbDictionaryWithDefault
340
9
  0
LAYOUT
  5
1A
100
AcDbPlotSettings
  1

  2

  4

  6

 40
0.0
 41
0.0
 42
0.0
 43
0.0
 44
0.0
 45
0.0
 46
0.0
 47
0.0
 48
0.0
 49
0.0
140
0.0
141
0.0
142
1.0
143
1.0
 70
688
 72
1
 73
0
 74
5
  7

 75
0
147
1.0
148
0.0
149
0.0
100
AcDbLayout
  1
Layout
 70
1
 71
1
 10
0.0
 20
0.0
 11
420.0
 21
297.0
 12
0.0
 22
0.0
 32
0.0
 14
100000000000000000000.0
 24
100000000000000000000.0
 34
100000000000000000000.0
 15
-100000000000000000000.0
 25
-100000000000000000000.0
 35
-100000000000000000000.0
146
0.0
 13
0.0
 23
0.0
 33
0.0
 16
1.0
 26
0.0
 36
0.0
 17
0.0
 27
1.0
 37
0.0
 76
0
330
19
  0
LAYOUT
  5
18
100
AcDbPlotSettings
  1

  2

  4

  6

 40
0.0
 41
0.0
 42
0.0
 43
0.0
 44
0.0
 45
0.0
 46
0.0
 47
0.0
 48
0.0
 49
0.0
140
0.0
141
0.0
142
1.0
143
1.0
 70
1712
 72
1
 73
0
 74
0
  7

 75
0
147
1.0
148
0.0
149
0.0
100
AcDbLayout
  1
Model
 70
1
 71
0
 10
0.0
 20
0.0
 11
12.0
 21
9.0
 12
0.0
 22
0.0
 32
0.0
 14
0.0
 24
0.0
 34
0.0
 15
0.0
 25
0.0
 35
0.0
146
0.0
 13
0.0
 23
0.0
 33
0.0
 16
1.0
 26
0.0
 36
0.0
 17
0.0
 27
1.0
 37
0.0
 76
0
330
17
  0
MLINESTYLE
  5
1BC
102
{ACAD_REACTORS
330
1B9
102
}
330
1B9
100
AcDbMlineStyle
  2
Standard
 70
0
  3

 62
256
 51
90.0
 52
90.0
  2
Standard
 71
2
 49
0.5
 62
256
  6
ByLayer
 49
-0.5
 62
256
  6
ByLayer
  0
ACDBPLACEHOLDER
  5
9
  0
ENDSEC
  0
EOF
